  0
SECTION
  2
HEADER
  9
$ACADVER
  1
AC1015
  9
$ACADMAINTVER
 70
     6
  9
$DWGCODEPAGE
  3
ANSI_1254
  9
$INSBASE
 10
0.0
 20
0.0
 30
0.0
  9
$EXTMIN
 10
0.0
 20
0.0
 30
0.0
  9
$EXTMAX
 10
279.4
 20
215.9
 30
0.0
  9
$LIMMIN
 10
0.0
 20
0.0
  9
$LIMMAX
 10
279.4
 20
215.9
  9
$ORTHOMODE
 70
     0
  9
$REGENMODE
 70
     1
  9
$FILLMODE
 70
     1
  9
$QTEXTMODE
 70
     0
  9
$MIRRTEXT
 70
     1
  9
$LTSCALE
 40
1.0
  9
$ATTMODE
 70
     1
  9
$TEXTSIZE
 40
3.5
  9
$TRACEWID
 40
1.0
  9
$TEXTSTYLE
  7
Standard
  9
$CLAYER
  8
0
  9
$CELTYPE
  6
ByLayer
  9
$CECOLOR
 62
   256
  9
$CELTSCALE
 40
1.0
  9
$DISPSILH
 70
     0
  9
$DIMSCALE
 40
1.0
  9
$DIMASZ
 40
3.5
  9
$DIMEXO
 40
1.0
  9
$DIMDLI
 40
3.75
  9
$DIMRND
 40
0.0
  9
$DIMDLE
 40
0.0
  9
$DIMEXE
 40
1.0
  9
$DIMTP
 40
0.0
  9
$DIMTM
 40
0.0
  9
$DIMTXT
 40
3.5
  9
$DIMCEN
 40
2.5
  9
$DIMTSZ
 40
0.0
  9
$DIMTOL
 70
     0
  9
$DIMLIM
 70
     0
  9
$DIMTIH
 70
     1
  9
$DIMTOH
 70
     1
  9
$DIMSE1
 70
     0
  9
$DIMSE2
 70
     0
  9
$DIMTAD
 70
     1
  9
$DIMZIN
 70
     0
  9
$DIMBLK
  1

  9
$DIMASO
 70
     1
  9
$DIMSHO
 70
     1
  9
$DIMPOST
  1

  9
$DIMAPOST
  1

  9
$DIMALT
 70
     0
  9
$DIMALTD
 70
     3
  9
$DIMALTF
 40
0.0393700787
  9
$DIMLFAC
 40
1.0
  9
$DIMTOFL
 70
     1
  9
$DIMTVP
 40
0.0
  9
$DIMTIX
 70
     0
  9
$DIMSOXD
 70
     0
  9
$DIMSAH
 70
     0
  9
$DIMBLK1
  1

  9
$DIMBLK2
  1

  9
$DIMSTYLE
  2
ISO-25
  9
$DIMCLRD
 70
     0
  9
$DIMCLRE
 70
     0
  9
$DIMCLRT
 70
     0
  9
$DIMTFAC
 40
1.0
  9
$DIMGAP
 40
1.524
  9
$DIMJUST
 70
     0
  9
$DIMSD1
 70
     0
  9
$DIMSD2
 70
     0
  9
$DIMTOLJ
 70
     0
  9
$DIMTZIN
 70
     0
  9
$DIMALTZ
 70
     0
  9
$DIMALTTZ
 70
     0
  9
$DIMUPT
 70
     0
  9
$DIMDEC
 70
     2
  9
$DIMTDEC
 70
     2
  9
$DIMALTU
 70
     2
  9
$DIMALTTD
 70
     3
  9
$DIMTXSTY
  7
Standard
  9
$DIMAUNIT
 70
     0
  9
$DIMADEC
 70
     2
  9
$DIMALTRND
 40
0.0
  9
$DIMAZIN
 70
     0
  9
$DIMDSEP
 70
    44
  9
$DIMATFIT
 70
     3
  9
$DIMFRAC
 70
     0
  9
$DIMLDRBLK
  1

  9
$DIMLUNIT
 70
     2
  9
$DIMLWD
 70
    -2
  9
$DIMLWE
 70
    -2
  9
$DIMTMOVE
 70
     0
  9
$LUNITS
 70
     2
  9
$LUPREC
 70
     2
  9
$SKETCHINC
 40
1.0
  9
$FILLETRAD
 40
10.0
  9
$AUNITS
 70
     0
  9
$AUPREC
 70
     2
  9
$MENU
  1
.
  9
$ELEVATION
 40
0.0
  9
$PELEVATION
 40
0.0
  9
$THICKNESS
 40
0.0
  9
$LIMCHECK
 70
     0
  9
$CHAMFERA
 40
0.0
  9
$CHAMFERB
 40
0.0
  9
$CHAMFERC
 40
0.0
  9
$CHAMFERD
 40
0.0
  9
$SKPOLY
 70
     0
  9
$TDCREATE
 40
2458985.633244919
  9
$TDUCREATE
 40
2458985.508244919
  9
$TDUPDATE
 40
2458985.633245174
  9
$TDUUPDATE
 40
2458985.508245174
  9
$TDINDWG
 40
0.0000000116
  9
$TDUSRTIMER
 40
0.0000000116
  9
$USRTIMER
 70
     1
  9
$ANGBASE
 50
0.0
  9
$ANGDIR
 70
     0
  9
$PDMODE
 70
     0
  9
$PDSIZE
 40
-1.0
  9
$PLINEWID
 40
0.0
  9
$SPLFRAME
 70
     0
  9
$SPLINETYPE
 70
     6
  9
$SPLINESEGS
 70
     8
  9
$HANDSEED
  5
CD
  9
$SURFTAB1
 70
     6
  9
$SURFTAB2
 70
     6
  9
$SURFTYPE
 70
     6
  9
$SURFU
 70
     6
  9
$SURFV
 70
     6
  9
$UCSBASE
  2

  9
$UCSNAME
  2

  9
$UCSORG
 10
0.0
 20
0.0
 30
0.0
  9
$UCSXDIR
 10
1.0
 20
0.0
 30
0.0
  9
$UCSYDIR
 10
0.0
 20
1.0
 30
0.0
  9
$UCSORTHOREF
  2

  9
$UCSORTHOVIEW
 70
     0
  9
$UCSORGTOP
 10
0.0
 20
0.0
 30
0.0
  9
$UCSORGBOTTOM
 10
0.0
 20
0.0
 30
0.0
  9
$UCSORGLEFT
 10
0.0
 20
0.0
 30
0.0
  9
$UCSORGRIGHT
 10
0.0
 20
0.0
 30
0.0
  9
$UCSORGFRONT
 10
0.0
 20
0.0
 30
0.0
  9
$UCSORGBACK
 10
0.0
 20
0.0
 30
0.0
  9
$PUCSBASE
  2

  9
$PUCSNAME
  2

  9
$PUCSORG
 10
0.0
 20
0.0
 30
0.0
  9
$PUCSXDIR
 10
1.0
 20
0.0
 30
0.0
  9
$PUCSYDIR
 10
0.0
 20
1.0
 30
0.0
  9
$PUCSORTHOREF
  2

  9
$PUCSORTHOVIEW
 70
     0
  9
$PUCSORGTOP
 10
0.0
 20
0.0
 30
0.0
  9
$PUCSORGBOTTOM
 10
0.0
 20
0.0
 30
0.0
  9
$PUCSORGLEFT
 10
0.0
 20
0.0
 30
0.0
  9
$PUCSORGRIGHT
 10
0.0
 20
0.0
 30
0.0
  9
$PUCSORGFRONT
 10
0.0
 20
0.0
 30
0.0
  9
$PUCSORGBACK
 10
0.0
 20
0.0
 30
0.0
  9
$USERI1
 70
     0
  9
$USERI2
 70
     0
  9
$USERI3
 70
     0
  9
$USERI4
 70
     0
  9
$USERI5
 70
     0
  9
$USERR1
 40
0.0
  9
$USERR2
 40
0.0
  9
$USERR3
 40
0.0
  9
$USERR4
 40
0.0
  9
$USERR5
 40
0.0
  9
$WORLDVIEW
 70
     1
  9
$SHADEDGE
 70
     3
  9
$SHADEDIF
 70
    70
  9
$TILEMODE
 70
     1
  9
$MAXACTVP
 70
    64
  9
$PINSBASE
 10
0.0
 20
0.0
 30
0.0
  9
$PLIMCHECK
 70
     0
  9
$PEXTMIN
 10
1.0000000000E+20
 20
1.0000000000E+20
 30
1.0000000000E+20
  9
$PEXTMAX
 10
-1.0000000000E+20
 20
-1.0000000000E+20
 30
-1.0000000000E+20
  9
$PLIMMIN
 10
0.0
 20
0.0
  9
$PLIMMAX
 10
420.0
 20
297.0
  9
$UNITMODE
 70
     0
  9
$VISRETAIN
 70
     1
  9
$PLINEGEN
 70
     0
  9
$PSLTSCALE
 70
     1
  9
$TREEDEPTH
 70
  3020
  9
$CMLSTYLE
  2
Standard
  9
$CMLJUST
 70
     0
  9
$CMLSCALE
 40
20.0
  9
$PROXYGRAPHICS
 70
     1
  9
$MEASUREMENT
 70
     1
  9
$CELWEIGHT
370
    -1
  9
$ENDCAPS
280
     0
  9
$JOINSTYLE
280
     0
  9
$LWDISPLAY
290
     1
  9
$INSUNITS
 70
     4
  9
$HYPERLINKBASE
  1

  9
$STYLESHEET
  1

  9
$XEDIT
290
     1
  9
$CEPSNTYPE
380
     0
  9
$PSTYLEMODE
290
     1
  9
$FINGERPRINTGUID
  2
{288eba5b-c028-49c8-8616-ddbb7773a108}
  9
$VERSIONGUID
  2
{FAEB1C32-E019-11D5-929B-00C0DF256EC4}
  9
$EXTNAMES
290
     1
  9
$PSVPSCALE
 40
0.0
  9
$OLESTARTUP
290
     0
  0
ENDSEC
  0
SECTION
  2
CLASSES
  0
CLASS
  1
ACDBDICTIONARYWDFLT
  2
AcDbDictionaryWithDefault
  3
ObjectDBX Classes
 90
        0
280
     0
281
     0
  0
CLASS
  1
VISUALSTYLE
  2
AcDbVisualStyle
  3
ObjectDBX Classes
 90
     4095
280
     0
281
     0
  0
CLASS
  1
MATERIAL
  2
AcDbMaterial
  3
ObjectDBX Classes
 90
     1153
280
     0
281
     0
  0
CLASS
  1
SCALE
  2
AcDbScale
  3
ObjectDBX Classes
 90
     1153
280
     0
281
     0
  0
CLASS
  1
TABLESTYLE
  2
AcDbTableStyle
  3
ObjectDBX Classes
 90
     4095
280
     0
281
     0
  0
CLASS
  1
MLEADERSTYLE
  2
AcDbMLeaderStyle
  3
ACDB_MLEADERSTYLE_CLASS
 90
     4095
280
     0
281
     0
  0
CLASS
  1
SUN
  2
AcDbSun
  3
SCENEOE
 90
     1153
280
     0
281
     0
  0
CLASS
  1
ACDBPLACEHOLDER
  2
AcDbPlaceHolder
  3
ObjectDBX Classes
 90
        0
280
     0
281
     0
  0
CLASS
  1
LAYOUT
  2
AcDbLayout
  3
ObjectDBX Classes
 90
        0
280
     0
281
     0
  0
ENDSEC
  0
SECTION
  2
TABLES
  0
TABLE
  2
VPORT
  5
8
330
0
100
AcDbSymbolTable
 70
     1
  0
VPORT
  5
29
330
8
100
AcDbSymbolTableRecord
100
AcDbViewportTableRecord
  2
*Active
 70
     0
 10
0.0
 20
0.0
 11
1.0
 21
1.0
 12
139.7
 22
107.95
 13
0.0
 23
0.0
 14
10.0
 24
10.0
 15
10.0
 25
10.0
 16
0.0
 26
0.0
 36
1.0
 17
0.0
 27
0.0
 37
0.0
 40
215.9
 41
1.2941176471
 42
50.0
 43
0.0
 44
0.0
 50
0.0
 51
0.0
 71
     0
 72
  2000
 73
     1
 74
     3
 75
     0
 76
     0
 77
     0
 78
     0
281
     0
 65
     1
110
0.0
120
0.0
130
0.0
111
1.0
121
0.0
131
0.0
112
0.0
122
1.0
132
0.0
 79
     0
146
0.0
  0
ENDTAB
  0
TABLE
  2
LTYPE
  5
5
330
0
100
AcDbSymbolTable
 70
     6
  0
LTYPE
  5
14
330
5
100
AcDbSymbolTableRecord
100
AcDbLinetypeTableRecord
  2
ByBlock
 70
     0
  3

 72
    65
 73
     0
 40
0.0
  0
LTYPE
  5
15
330
5
100
AcDbSymbolTableRecord
100
AcDbLinetypeTableRecord
  2
ByLayer
 70
     0
  3

 72
    65
 73
     0
 40
0.0
  0
LTYPE
  5
16
330
5
100
AcDbSymbolTableRecord
100
AcDbLinetypeTableRecord
  2
Continuous
 70
     0
  3
Solid line
 72
    65
 73
     0
 40
0.0
  0
LTYPE
  5
6E
330
5
100
AcDbSymbolTableRecord
100
AcDbLinetypeTableRecord
  2
HIDDEN
 70
     0
  3
Hidden __ __ __ __ __ __ __ __ __ __ __ __ __ __
 72
    65
 73
     2
 40
1.905
 49
1.27
 74
     0
 49
-0.635
 74
     0
  0
LTYPE
  5
6F
330
5
100
AcDbSymbolTableRecord
100
AcDbLinetypeTableRecord
  2
PHANTOM
 70
     0
  3
Phantom ______  __  __  ______  __  __  ______
 72
    65
 73
     6
 40
12.7
 49
6.35
 74
     0
 49
-1.27
 74
     0
 49
1.27
 74
     0
 49
-1.27
 74
     0
 49
1.27
 74
     0
 49
-1.27
 74
     0
  0
LTYPE
  5
70
330
5
100
AcDbSymbolTableRecord
100
AcDbLinetypeTableRecord
  2
CENTER
 70
     0
  3
Center ____ _ ____ _ ____ _ ____ _ ____ _ ____
 72
    65
 73
     4
 40
10.16
 49
6.35
 74
     0
 49
-1.27
 74
     0
 49
1.27
 74
     0
 49
-1.27
 74
     0
  0
LTYPE
  5
71
330
5
100
AcDbSymbolTableRecord
100
AcDbLinetypeTableRecord
  2
CENTERX2
 70
     0
  3
Center (2x) ________  __  ________  __  _____
 72
    65
 73
     4
 40
20.32
 49
12.7
 74
     0
 49
-2.54
 74
     0
 49
2.54
 74
     0
 49
-2.54
 74
     0
  0
LTYPE
  5
72
330
5
100
AcDbSymbolTableRecord
100
AcDbLinetypeTableRecord
  2
DOT2
 70
     0
  3
Dot (.5x) ........................................
 72
    65
 73
     2
 40
0.635
 49
0.0
 74
     0
 49
-0.635
 74
     0
  0
ENDTAB
  0
TABLE
  2
LAYER
  5
2
330
0
100
AcDbSymbolTable
 70
    17
  0
LAYER
  5
10
330
2
100
AcDbSymbolTableRecord
100
AcDbLayerTableRecord
  2
0
 70
     0
 62
     7
  6
Continuous
370
    -3
390
F
  0
LAYER
  5
73
330
2
100
AcDbSymbolTableRecord
100
AcDbLayerTableRecord
  2
FORMAT
 70
     0
 62
     7
  6
Continuous
370
    -3
390
F
  0
LAYER
  5
74
330
2
100
AcDbSymbolTableRecord
100
AcDbLayerTableRecord
  2
YARDIMCI_GEOMETRI
 70
     0
 62
    -6
  6
Continuous
290
     0
370
    -3
390
F
  0
LAYER
  5
75
330
2
100
AcDbSymbolTableRecord
100
AcDbLayerTableRecord
  2
SAYFA_CERCEVESI
 70
     0
 62
     7
  6
Continuous
370
    25
390
F
  0
LAYER
  5
76
330
2
100
AcDbSymbolTableRecord
100
AcDbLayerTableRecord
  2
ANTET
 70
     0
 62
     7
  6
Continuous
370
    -3
390
F
  0
LAYER
  5
77
330
2
100
AcDbSymbolTableRecord
100
AcDbLayerTableRecord
  2
OLCU
 70
     0
 62
   150
  6
Continuous
370
    -3
390
F
  0
LAYER
  5
78
330
2
100
AcDbSymbolTableRecord
100
AcDbLayerTableRecord
  2
METIN
 70
     0
 62
    96
  6
Continuous
370
    -3
390
F
  0
LAYER
  5
79
330
2
100
AcDbSymbolTableRecord
100
AcDbLayerTableRecord
  2
BALON
 70
     0
 62
     5
  6
Continuous
370
    -3
390
F
  0
LAYER
  5
7A
330
2
100
AcDbSymbolTableRecord
100
AcDbLayerTableRecord
  2
VURGU
 70
     0
 62
     7
  6
Continuous
370
    -3
390
F
  0
LAYER
  5
7B
330
2
100
AcDbSymbolTableRecord
100
AcDbLayerTableRecord
  2
SILIK
 70
     0
 62
     7
  6
Continuous
370
    -3
390
F
  0
LAYER
  5
7C
330
2
100
AcDbSymbolTableRecord
100
AcDbLayerTableRecord
  2
MODEL
 70
     0
 62
     7
  6
Continuous
370
    -3
390
F
  0
LAYER
  5
7D
330
2
100
AcDbSymbolTableRecord
100
AcDbLayerTableRecord
  2
DETAYLANDıRMA
 70
     0
 62
   190
  6
Continuous
370
    -3
390
F
  0
LAYER
  5
7E
330
2
100
AcDbSymbolTableRecord
100
AcDbLayerTableRecord
  2
TOLERANS
 70
     0
 62
   230
  6
Continuous
370
    -3
390
F
  0
LAYER
  5
7F
330
2
100
AcDbSymbolTableRecord
100
AcDbLayerTableRecord
  2
MERKEZ_CIZGILERI
 70
     0
 62
    30
  6
Continuous
370
    -3
390
F
  0
LAYER
  5
80
330
2
100
AcDbSymbolTableRecord
100
AcDbLayerTableRecord
  2
KESIT-DETAY_CIZGILERI
 70
     0
 62
     7
  6
Continuous
370
    -3
390
F
  0
LAYER
  5
81
330
2
100
AcDbSymbolTableRecord
100
AcDbLayerTableRecord
  2
\U+041E\U+0421\U+0415\U+0412\U+042B\U+0415
 70
     0
 62
     7
  6
Continuous
370
    -3
390
F
  0
LAYER
  5
82
330
2
100
AcDbSymbolTableRecord
100
AcDbLayerTableRecord
  2
\U+0412\U+041E\U+0414\U+042F\U+041D\U+042B\U+0415_\U+0417\U+041D\U+0410\U+041A\U+0418
 70
     0
 62
    11
  6
Continuous
370
    -3
390
F
  0
ENDTAB
  0
TABLE
  2
STYLE
  5
3
330
0
100
AcDbSymbolTable
 70
     1
  0
STYLE
  5
11
330
3
100
AcDbSymbolTableRecord
100
AcDbTextStyleTableRecord
  2
Standard
 70
     0
 40
0.0
 41
1.0
 50
0.0
 71
     0
 42
3.5
  3
txt
  4

  0
ENDTAB
  0
TABLE
  2
VIEW
  5
6
330
0
100
AcDbSymbolTable
 70
     0
  0
ENDTAB
  0
TABLE
  2
UCS
  5
7
330
0
100
AcDbSymbolTable
 70
     0
  0
ENDTAB
  0
TABLE
  2
APPID
  5
9
330
0
100
AcDbSymbolTable
 70
     1
  0
APPID
  5
12
330
9
100
AcDbSymbolTableRecord
100
AcDbRegAppTableRecord
  2
ACAD
 70
     0
  0
ENDTAB
  0
TABLE
  2
DIMSTYLE
  5
A
330
0
100
AcDbSymbolTable
 70
     1
100
AcDbDimStyleTable
  0
DIMSTYLE
105
27
330
A
100
AcDbSymbolTableRecord
100
AcDbDimStyleTableRecord
  2
ISO-25
 70
     0
 41
2.5
 42
0.625
 43
3.75
 44
1.25
 73
     0
 74
     0
 77
     1
 78
     8
140
2.5
141
2.5
143
0.0393700787
147
0.625
171
     3
172
     1
178
     0
271
     2
272
     2
274
     3
278
    44
283
     0
284
     8
340
11
  0
ENDTAB
  0
TABLE
  2
BLOCK_RECORD
  5
1
330
0
100
AcDbSymbolTable
 70
     2
  0
BLOCK_RECORD
  5
1F
330
1
100
AcDbSymbolTableRecord
100
AcDbBlockTableRecord
  2
*Model_Space
340
22
  0
BLOCK_RECORD
  5
1B
330
1
100
AcDbSymbolTableRecord
100
AcDbBlockTableRecord
  2
*Paper_Space
340
1E
  0
BLOCK_RECORD
  5
23
330
1
100
AcDbSymbolTableRecord
100
AcDbBlockTableRecord
  2
*Paper_Space0
340
26
  0
BLOCK_RECORD
  5
87
330
1
100
AcDbSymbolTableRecord
100
AcDbBlockTableRecord
  2
SW_CENTERMARKSYMBOL_0
340
0
102
{BLKREFS
331
92
102
}
  0
ENDTAB
  0
ENDSEC
  0
SECTION
  2
BLOCKS
  0
BLOCK
  5
20
330
1F
100
AcDbEntity
  8
0
100
AcDbBlockBegin
  2
*Model_Space
 70
     0
 10
0.0
 20
0.0
 30
0.0
  3
*Model_Space
  1

  0
ENDBLK
  5
21
330
1F
100
AcDbEntity
  8
0
100
AcDbBlockEnd
  0
BLOCK
  5
1C
330
1B
100
AcDbEntity
 67
     1
  8
0
100
AcDbBlockBegin
  2
*Paper_Space
 70
     0
 10
0.0
 20
0.0
 30
0.0
  3
*Paper_Space
  1

  0
ENDBLK
  5
1D
330
1B
100
AcDbEntity
 67
     1
  8
0
100
AcDbBlockEnd
  0
BLOCK
  5
24
330
23
100
AcDbEntity
  8
0
100
AcDbBlockBegin
  2
*Paper_Space0
 70
     0
 10
0.0
 20
0.0
 30
0.0
  3
*Paper_Space0
  1

  0
ENDBLK
  5
25
330
23
100
AcDbEntity
  8
0
100
AcDbBlockEnd
  0
BLOCK
  5
88
330
87
100
AcDbEntity
  8
0
100
AcDbBlockBegin
  2
SW_CENTERMARKSYMBOL_0
 70
     0
 10
0.0
 20
0.0
 30
0.0
  3
SW_CENTERMARKSYMBOL_0
  1

  0
LINE
  5
8A
330
87
100
AcDbEntity
  8
FORMAT
 62
     0
100
AcDbLine
 10
0.0
 20
0.0
 30
0.0
 11
0.0
 21
2.5
 31
0.0
  0
LINE
  5
8B
330
87
100
AcDbEntity
  8
FORMAT
 62
     0
100
AcDbLine
 10
0.0
 20
0.0
 30
0.0
 11
-2.5
 21
0.0
 31
0.0
  0
LINE
  5
8C
330
87
100
AcDbEntity
  8
FORMAT
 62
     0
100
AcDbLine
 10
0.0
 20
0.0
 30
0.0
 11
0.0
 21
-2.5
 31
0.0
  0
LINE
  5
8D
330
87
100
AcDbEntity
  8
FORMAT
 62
     0
100
AcDbLine
 10
0.0
 20
0.0
 30
0.0
 11
2.5
 21
0.0
 31
0.0
  0
LINE
  5
8E
330
87
100
AcDbEntity
  8
FORMAT
 62
     0
100
AcDbLine
 10
0.0
 20
5.0
 30
0.0
 11
0.0
 21
162.5
 31
0.0
  0
LINE
  5
8F
330
87
100
AcDbEntity
  8
FORMAT
 62
     0
100
AcDbLine
 10
-5.0
 20
0.0
 30
0.0
 11
-162.5
 21
0.0
 31
0.0
  0
LINE
  5
90
330
87
100
AcDbEntity
  8
FORMAT
 62
     0
100
AcDbLine
 10
0.0
 20
-5.0
 30
0.0
 11
0.0
 21
-162.5
 31
0.0
  0
LINE
  5
91
330
87
100
AcDbEntity
  8
FORMAT
 62
     0
100
AcDbLine
 10
5.0
 20
0.0
 30
0.0
 11
162.5
 21
0.0
 31
0.0
  0
ENDBLK
  5
89
330
87
100
AcDbEntity
  8
0
100
AcDbBlockEnd
  0
ENDSEC
  0
SECTION
  2
ENTITIES
  0
CIRCLE
  5
83
330
1F
100
AcDbEntity
  8
0
  6
Continuous
 62
     7
370
    25
100
AcDbCircle
 10
144.7619143612
 20
99.7185803243
 30
0.0
 40
140.0
  0
CIRCLE
  5
84
330
1F
100
AcDbEntity
  8
0
  6
Continuous
 62
     7
370
    25
100
AcDbCircle
 10
144.7619143612
 20
99.7185803243
 30
0.0
 40
114.6
  0
CIRCLE
  5
85
330
1F
100
AcDbEntity
  8
0
  6
Continuous
 62
     7
370
    25
100
AcDbCircle
 10
144.7619143612
 20
99.7185803243
 30
0.0
 40
144.0
  0
CIRCLE
  5
86
330
1F
100
AcDbEntity
  8
0
  6
Continuous
 62
     7
370
    25
100
AcDbCircle
 10
144.7619143612
 20
99.7185803243
 30
0.0
 40
160.0
  0
INSERT
  5
92
330
1F
100
AcDbEntity
  8
FORMAT
 62
     7
100
AcDbBlockReference
  2
SW_CENTERMARKSYMBOL_0
 10
144.7619143612
 20
99.7185803243
 30
0.0
  0
LINE
  5
93
330
1F
100
AcDbEntity
  8
0
  6
Continuous
 62
     7
370
    25
100
AcDbLine
 10
304.7619143612
 20
336.3439307388
 30
0.0
 11
304.7619143612
 21
371.3439307388
 31
0.0
  0
LINE
  5
94
330
1F
100
AcDbEntity
  8
0
  6
Continuous
 62
     7
370
    25
100
AcDbLine
 10
-15.2380856388
 20
371.3439307388
 30
0.0
 11
-15.2380856388
 21
336.3439307388
 31
0.0
  0
LINE
  5
95
330
1F
100
AcDbEntity
  8
0
  6
Continuous
 62
     7
370
    25
100
AcDbLine
 10
288.7619143612
 20
371.3439307388
 30
0.0
 11
284.7619143612
 21
402.3439307388
 31
0.0
  0
LINE
  5
96
330
1F
100
AcDbEntity
  8
0
  6
Continuous
 62
     7
370
    25
100
AcDbLine
 10
4.7619143612
 20
402.3439307388
 30
0.0
 11
0.7619143612
 21
371.3439307388
 31
0.0
  0
LINE
  5
97
330
1F
100
AcDbEntity
  8
0
  6
Continuous
 62
     7
370
    25
100
AcDbLine
 10
284.7619143612
 20
402.3439307388
 30
0.0
 11
284.7619143612
 21
547.3439307388
 31
0.0
  0
LINE
  5
98
330
1F
100
AcDbEntity
  8
0
  6
Continuous
 62
     7
370
    25
100
AcDbLine
 10
4.7619143612
 20
547.3439307388
 30
0.0
 11
4.7619143612
 21
402.3439307388
 31
0.0
  0
LINE
  5
99
330
1F
100
AcDbEntity
  8
0
  6
Continuous
 62
     7
370
    25
100
AcDbLine
 10
304.7619143612
 20
336.3439307388
 30
0.0
 11
-15.2380856388
 21
336.3439307388
 31
0.0
  0
LINE
  5
9A
330
1F
100
AcDbEntity
  8
0
  6
Continuous
 62
     7
370
    25
100
AcDbLine
 10
304.7619143612
 20
371.3439307388
 30
0.0
 11
-15.2380856388
 21
371.3439307388
 31
0.0
  0
LINE
  5
9B
330
1F
100
AcDbEntity
  8
0
  6
Continuous
 62
     7
370
    25
100
AcDbLine
 10
284.7619143612
 20
402.3439307388
 30
0.0
 11
4.7619143612
 21
402.3439307388
 31
0.0
  0
LINE
  5
9C
330
1F
100
AcDbEntity
  8
0
  6
Continuous
 62
     7
370
    25
100
AcDbLine
 10
284.7619143612
 20
547.3439307388
 30
0.0
 11
4.7619143612
 21
547.3439307388
 31
0.0
  0
LINE
  5
9D
330
1F
100
AcDbEntity
  8
0
  6
Continuous
 62
     7
370
    25
100
AcDbLine
 10
-105.8208291791
 20
259.7185803243
 30
0.0
 11
-140.8208291791
 21
259.7185803243
 31
0.0
  0
LINE
  5
9E
330
1F
100
AcDbEntity
  8
0
  6
Continuous
 62
     7
370
    25
100
AcDbLine
 10
-140.8208291791
 20
-60.2814196757
 30
0.0
 11
-105.8208291791
 21
-60.2814196757
 31
0.0
  0
LINE
  5
9F
330
1F
100
AcDbEntity
  8
0
  6
Continuous
 62
     7
370
    25
100
AcDbLine
 10
-140.8208291791
 20
243.7185803243
 30
0.0
 11
-171.8208291791
 21
239.7185803243
 31
0.0
  0
LINE
  5
A0
330
1F
100
AcDbEntity
  8
0
  6
Continuous
 62
     7
370
    25
100
AcDbLine
 10
-171.8208291791
 20
-40.2814196757
 30
0.0
 11
-140.8208291791
 21
-44.2814196757
 31
0.0
  0
LINE
  5
A1
330
1F
100
AcDbEntity
  8
0
  6
Continuous
 62
     7
370
    25
100
AcDbLine
 10
-171.8208291791
 20
239.7185803243
 30
0.0
 11
-316.8208291791
 21
239.7185803243
 31
0.0
  0
LINE
  5
A2
330
1F
100
AcDbEntity
  8
0
  6
Continuous
 62
     7
370
    25
100
AcDbLine
 10
-316.8208291791
 20
-40.2814196757
 30
0.0
 11
-171.8208291791
 21
-40.2814196757
 31
0.0
  0
LINE
  5
A3
330
1F
100
AcDbEntity
  8
0
  6
Continuous
 62
     7
370
    25
100
AcDbLine
 10
-105.8208291791
 20
259.7185803243
 30
0.0
 11
-105.8208291791
 21
-60.2814196757
 31
0.0
  0
LINE
  5
A4
330
1F
100
AcDbEntity
  8
0
  6
Continuous
 62
     7
370
    25
100
AcDbLine
 10
-140.8208291791
 20
259.7185803243
 30
0.0
 11
-140.8208291791
 21
-60.2814196757
 31
0.0
  0
LINE
  5
A5
330
1F
100
AcDbEntity
  8
0
  6
Continuous
 62
     7
370
    25
100
AcDbLine
 10
-171.8208291791
 20
239.7185803243
 30
0.0
 11
-171.8208291791
 21
-40.2814196757
 31
0.0
  0
LINE
  5
A6
330
1F
100
AcDbEntity
  8
0
  6
Continuous
 62
     7
370
    25
100
AcDbLine
 10
-316.8208291791
 20
239.7185803243
 30
0.0
 11
-316.8208291791
 21
-40.2814196757
 31
0.0
  0
LINE
  5
A7
330
1F
100
AcDbEntity
  8
0
  6
Continuous
 62
     7
370
    25
100
AcDbLine
 10
400.2743756095
 20
-60.2814196757
 30
0.0
 11
435.2743756095
 21
-60.2814196757
 31
0.0
  0
LINE
  5
A8
330
1F
100
AcDbEntity
  8
0
  6
Continuous
 62
     7
370
    25
100
AcDbLine
 10
435.2743756095
 20
259.7185803243
 30
0.0
 11
400.2743756095
 21
259.7185803243
 31
0.0
  0
LINE
  5
A9
330
1F
100
AcDbEntity
  8
0
  6
Continuous
 62
     7
370
    25
100
AcDbLine
 10
435.2743756095
 20
-44.2814196757
 30
0.0
 11
466.2743756095
 21
-40.2814196757
 31
0.0
  0
LINE
  5
AA
330
1F
100
AcDbEntity
  8
0
  6
Continuous
 62
     7
370
    25
100
AcDbLine
 10
466.2743756095
 20
239.7185803243
 30
0.0
 11
435.2743756095
 21
243.7185803243
 31
0.0
  0
LINE
  5
AB
330
1F
100
AcDbEntity
  8
0
  6
Continuous
 62
     7
370
    25
100
AcDbLine
 10
466.2743756095
 20
-40.2814196757
 30
0.0
 11
611.2743756095
 21
-40.2814196757
 31
0.0
  0
LINE
  5
AC
330
1F
100
AcDbEntity
  8
0
  6
Continuous
 62
     7
370
    25
100
AcDbLine
 10
611.2743756095
 20
239.7185803243
 30
0.0
 11
466.2743756095
 21
239.7185803243
 31
0.0
  0
LINE
  5
AD
330
1F
100
AcDbEntity
  8
0
  6
Continuous
 62
     7
370
    25
100
AcDbLine
 10
400.2743756095
 20
99.7185803243
 30
0.0
 11
400.2743756095
 21
259.7185803243
 31
0.0
  0
LINE
  5
AE
330
1F
100
AcDbEntity
  8
0
  6
Continuous
 62
     7
370
    25
100
AcDbLine
 10
400.2743756095
 20
-60.2814196757
 30
0.0
 11
400.2743756095
 21
99.7185803243
 31
0.0
  0
LINE
  5
AF
330
1F
100
AcDbEntity
  8
0
  6
Continuous
 62
     7
370
    25
100
AcDbLine
 10
435.2743756095
 20
99.7185803243
 30
0.0
 11
435.2743756095
 21
259.7185803243
 31
0.0
  0
LINE
  5
B0
330
1F
100
AcDbEntity
  8
0
  6
Continuous
 62
     7
370
    25
100
AcDbLine
 10
435.2743756095
 20
-60.2814196757
 30
0.0
 11
435.2743756095
 21
99.7185803243
 31
0.0
  0
LINE
  5
B1
330
1F
100
AcDbEntity
  8
0
  6
Continuous
 62
     7
370
    25
100
AcDbLine
 10
466.2743756095
 20
99.7185803243
 30
0.0
 11
466.2743756095
 21
239.7185803243
 31
0.0
  0
LINE
  5
B2
330
1F
100
AcDbEntity
  8
0
  6
Continuous
 62
     7
370
    25
100
AcDbLine
 10
466.2743756095
 20
-40.2814196757
 30
0.0
 11
466.2743756095
 21
99.7185803243
 31
0.0
  0
LINE
  5
B3
330
1F
100
AcDbEntity
  8
0
  6
Continuous
 62
     7
370
    25
100
AcDbLine
 10
611.2743756095
 20
99.7185803243
 30
0.0
 11
611.2743756095
 21
239.7185803243
 31
0.0
  0
LINE
  5
B4
330
1F
100
AcDbEntity
  8
0
  6
Continuous
 62
     7
370
    25
100
AcDbLine
 10
611.2743756095
 20
-40.2814196757
 30
0.0
 11
611.2743756095
 21
99.7185803243
 31
0.0
  0
LINE
  5
B5
330
1F
100
AcDbEntity
  8
0
  6
Continuous
 62
     7
370
    25
100
AcDbLine
 10
-15.2380856388
 20
-161.8832692274
 30
0.0
 11
-15.2380856388
 21
-196.8832692274
 31
0.0
  0
LINE
  5
B6
330
1F
100
AcDbEntity
  8
0
  6
Continuous
 62
     7
370
    25
100
AcDbLine
 10
304.7619143612
 20
-196.8832692274
 30
0.0
 11
304.7619143612
 21
-161.8832692274
 31
0.0
  0
LINE
  5
B7
330
1F
100
AcDbEntity
  8
0
  6
Continuous
 62
     7
370
    25
100
AcDbLine
 10
0.7619143612
 20
-196.8832692274
 30
0.0
 11
4.7619143612
 21
-227.8832692274
 31
0.0
  0
LINE
  5
B8
330
1F
100
AcDbEntity
  8
0
  6
Continuous
 62
     7
370
    25
100
AcDbLine
 10
284.7619143612
 20
-227.8832692274
 30
0.0
 11
288.7619143612
 21
-196.8832692274
 31
0.0
  0
LINE
  5
B9
330
1F
100
AcDbEntity
  8
0
  6
Continuous
 62
     7
370
    25
100
AcDbLine
 10
4.7619143612
 20
-227.8832692274
 30
0.0
 11
4.7619143612
 21
-372.8832692274
 31
0.0
  0
LINE
  5
BA
330
1F
100
AcDbEntity
  8
0
  6
Continuous
 62
     7
370
    25
100
AcDbLine
 10
284.7619143612
 20
-372.8832692274
 30
0.0
 11
284.7619143612
 21
-227.8832692274
 31
0.0
  0
LINE
  5
BB
330
1F
100
AcDbEntity
  8
0
  6
Continuous
 62
     7
370
    25
100
AcDbLine
 10
-15.2380856388
 20
-161.8832692274
 30
0.0
 11
304.7619143612
 21
-161.8832692274
 31
0.0
  0
LINE
  5
BC
330
1F
100
AcDbEntity
  8
0
  6
Continuous
 62
     7
370
    25
100
AcDbLine
 10
-15.2380856388
 20
-196.8832692274
 30
0.0
 11
304.7619143612
 21
-196.8832692274
 31
0.0
  0
LINE
  5
BD
330
1F
100
AcDbEntity
  8
0
  6
Continuous
 62
     7
370
    25
100
AcDbLine
 10
4.7619143612
 20
-227.8832692274
 30
0.0
 11
284.7619143612
 21
-227.8832692274
 31
0.0
  0
LINE
  5
BE
330
1F
100
AcDbEntity
  8
0
  6
Continuous
 62
     7
370
    25
100
AcDbLine
 10
4.7619143612
 20
-372.8832692274
 30
0.0
 11
284.7619143612
 21
-372.8832692274
 31
0.0
  0
LINE
  5
BF
330
1F
100
AcDbEntity
  8
0
  6
Continuous
 62
     7
370
    25
100
AcDbLine
 10
459.4990815351
 20
-164.9181576205
 30
0.0
 11
391.8282501402
 21
-230.9669636071
 31
0.0
  0
LINE
  5
C0
330
1F
100
AcDbEntity
  8
0
  6
Continuous
 62
     7
370
    25
100
AcDbLine
 10
587.4021345624
 20
-431.3437480209
 30
0.0
 11
655.0729659573
 21
-365.2949420343
 31
0.0
  0
LINE
  5
C1
330
1F
100
AcDbEntity
  8
0
  6
Continuous
 62
     7
370
    25
100
AcDbLine
 10
460.5926523663
 20
-160.5377969334
 30
0.0
 11
453.7704399984
 21
-170.5094873799
 31
0.0
  0
LINE
  5
C2
330
1F
100
AcDbEntity
  8
0
  6
Continuous
 62
     7
370
    25
100
AcDbLine
 10
649.3443244206
 20
-370.8862717937
 30
0.0
 11
659.4785640256
 21
-364.3079452907
 31
0.0
  0
LINE
  5
C3
330
1F
100
AcDbEntity
  8
0
  6
Continuous
 62
     7
370
    25
100
AcDbLine
 10
476.3314140315
 20
-120.5419357133
 30
0.0
 11
459.9970754189
 21
-136.4847509514
 31
0.0
  0
LINE
  5
C4
330
1F
100
AcDbEntity
  8
0
  6
Continuous
 62
     7
370
    25
100
AcDbLine
 10
683.5100861871
 20
-365.4867902815
 30
0.0
 11
699.8444247997
 21
-349.5439750434
 31
0.0
  0
LWPOLYLINE
  5
C5
330
1F
100
AcDbEntity
  8
0
  6
Continuous
 62
     7
370
    25
100
AcDbPolyline
 90
      128
 70
   128
 43
0.0
 10
365.7966553165
 20
-297.5041305583
 10
365.9481576708
 20
-291.6106900256
 10
366.402293982
 20
-285.8140219168
 10
367.1579529025
 20
-280.1283116498
 10
368.2132852083
 20
-274.5674731107
 10
369.5657083243
 20
-269.145114603
 10
371.2119126447
 20
-263.8745055467
 10
373.1478696314
 20
-258.7685440053
 10
375.3688416735
 20
-253.8397251225
 10
377.8693936801
 20
-249.1001105438
 10
380.6434063815
 20
-244.5612989004
 10
383.6840913037
 20
-240.234397425
 10
386.9840073812
 20
-236.1299947705
 10
390.5350791664
 20
-232.258135098
 10
394.3286165916
 20
-228.628293497
 10
398.3553362349
 20
-225.2493527981
 10
402.6053840387
 20
-222.1295818353
 10
407.0683594238
 20
-219.2766152111
 10
411.7333407416
 20
-216.6974346129
 10
416.5889120011
 20
-214.3983517277
 10
421.6231908056
 20
-212.3849927967
 10
426.8238574315
 20
-210.6622848465
 10
432.178184976
 20
-209.2344436321
 10
437.6730705023
 20
-208.1049633203
 10
443.2950671048
 20
-207.2766079387
 10
449.0304168158
 20
-206.7514046117
 10
454.8650842733
 20
-206.5306385999
 10
460.7847910684
 20
-206.6148501546
 10
466.7750506866
 20
-207.0038331961
 10
472.8212039588
 20
-207.6966358176
 10
478.9084549347
 20
-208.6915626152
 10
485.0219070913
 20
-209.9861788362
 10
491.1465997867
 20
-211.5773163377
 10
497.2675448714
 20
-213.4610813398
 10
503.3697633672
 20
-215.6328639536
 10
509.4383221228
 20
-218.0873494633
 10
515.4583703581
 20
-220.8185313315
 10
521.4151760062
 20
-223.8197258986
 10
527.2941617656
 20
-227.0835887384
 10
533.0809407728
 20
-230.6021326317
 10
538.7613518101
 20
-234.366747112
 10
544.3214939597
 20
-238.3682195368
 10
549.747760622
 20
-242.5967576326
 10
555.0268728133
 20
-247.042013458
 10
560.1459116613
 20
-251.6931087271
 10
565.0923500203
 20
-256.5386614305
 10
569.8540831266
 20
-261.5668136886
 10
574.4194582215
 20
-266.7652607704
 10
578.7773030669
 20
-272.1212812047
 10
582.9169532865
 20
-277.621767912
 10
586.8282784623
 20
-283.2532602796
 10
590.5017069263
 20
-289.001977102
 10
593.9282491834
 20
-294.8538503058
 10
597.0995199105
 20
-300.7945593767
 10
600.0077584768
 20
-306.8095664041
 10
602.6458479351
 20
-312.8841516578
 10
605.0073324385
 20
-319.0034496098
 10
607.0864330387
 20
-325.1524853126
 10
608.8780618281
 20
-331.3162110455
 10
610.3778343908
 20
-337.4795431386
 10
611.5820805321
 20
-343.6273988856
 10
612.4878532598
 20
-349.7447334532
 10
613.0929359964
 20
-355.8165766988
 10
613.3958480028
 20
-361.8280698042
 10
613.3958480028
 20
-367.7645016387
 10
613.0929359964
 20
-373.6113447587
 10
612.4878532598
 20
-379.3542909594
 10
611.5820805321
 20
-384.9792862889
 10
610.3778343908
 20
-390.4725654413
 10
608.8780618281
 20
-395.8206854418
 10
607.0864330387
 20
-401.0105585446
 10
605.0073324385
 20
-406.0294842607
 10
602.6458479351
 20
-410.8651804376
 10
600.0077584768
 20
-415.5058133166
 10
597.0995199105
 20
-419.9400264914
 10
593.9282491834
 20
-424.1569686992
 10
590.5017069263
 20
-428.1463203759
 10
586.8282784623
 20
-431.8983189094
 10
582.9169532865
 20
-435.4037825306
 10
578.7773030669
 20
-438.6541327825
 10
574.4194582215
 20
-441.6414155134
 10
569.8540831266
 20
-444.3583203419
 10
565.0923500203
 20
-446.7981985467
 10
560.1459116613
 20
-448.9550793368
 10
555.0268728133
 20
-450.8236844637
 10
549.747760622
 20
-452.3994411373
 10
544.3214939597
 20
-453.678493217
 10
538.7613518101
 20
-454.6577106482
 10
533.0809407728
 20
-455.3346971216
 10
527.2941617656
 20
-455.7077959379
 10
521.4151760062
 20
-455.7760940618
 10
515.4583703581
 20
-455.5394243563
 10
509.4383221228
 20
-454.9983659919
 10
503.3697633672
 20
-454.154243029
 10
497.2675448714
 20
-453.009121178
 10
491.1465997867
 20
-451.565802744
 10
485.0219070913
 20
-449.8278197689
 10
478.9084549347
 20
-447.7994253884
 10
472.8212039588
 20
-445.4855834235
 10
466.7750506866
 20
-442.8919562331
 10
460.7847910684
 20
-440.0248908576
 10
454.8650842733
 20
-436.8914034864
 10
449.0304168158
 20
-433.4991622883
 10
443.2950671048
 20
-429.8564686458
 10
437.6730705023
 20
-425.9722368407
 10
432.178184976
 20
-421.8559722391
 10
426.8238574315
 20
-417.5177480303
 10
421.6231908056
 20
-412.9681805758
 10
416.5889120011
 20
-408.2184034297
 10
411.7333407416
 20
-403.2800400925
 10
407.0683594238
 20
-398.1651755668
 10
402.6053840387
 20
-392.8863267833
 10
398.3553362349
 20
-387.4564119694
 10
394.3286165916
 20
-381.8887190367
 10
390.5350791664
 20
-376.1968730627
 10
386.9840073812
 20
-370.3948029484
 10
383.6840913037
 20
-364.4967073314
 10
380.6434063815
 20
-358.5170198403
 10
377.8693936801
 20
-352.4703737723
 10
375.3688416735
 20
-346.3715662835
 10
373.1478696314
 20
-340.2355221779
 10
371.2119126447
 20
-334.0772573836
 10
369.5657083243
 20
-327.9118422065
 10
368.2132852083
 20
-321.7543644508
 10
367.1579529025
 20
-315.6198924963
 10
366.402293982
 20
-309.5234384238
 10
365.9481576708
 20
-303.4799212781
 10
365.7966553165
 20
-297.5041305583
  0
LWPOLYLINE
  5
C6
330
1F
100
AcDbEntity
  8
0
  6
Continuous
 62
     7
370
    25
100
AcDbPolyline
 90
      116
 70
   128
 43
0.0
 10
388.2608756071
 20
-303.6094242832
 10
388.4121161656
 20
-298.2861900581
 10
388.8653864796
 20
-293.0610503423
 10
389.6193338125
 20
-287.9495990064
 10
390.6717080892
 20
-282.9670906301
 10
392.019368611
 20
-278.1283949768
 10
393.6582934294
 20
-273.4479526161
 10
395.5835913485
 20
-268.9397318275
 10
397.7895165227
 20
-264.6171869137
 10
400.2694856042
 20
-260.4932180477
 10
403.0160973905
 20
-256.5801327735
 10
406.0211549126
 20
-252.8896092754
 10
409.2756898978
 20
-249.4326615262
 10
412.7699895345
 20
-246.2196064165
 10
416.4936254592
 20
-243.2600329657
 10
420.4354848788
 20
-240.5627737041
 10
424.5838037355
 20
-238.1358783136
 10
428.9262018153
 20
-235.9865896038
 10
433.4497196958
 20
-234.1213218969
 10
438.1408574217
 20
-232.545641885
 10
442.9856147942
 20
-231.2642520164
 10
447.9695331531
 20
-230.2809764622
 10
453.0777385273
 20
-229.598749703
 10
458.2949860241
 20
-229.2196077718
 10
463.6057053265
 20
-229.1446821769
 10
468.9940471609
 20
-229.3741965259
 10
474.4439305973
 20
-229.9074658577
 10
479.9390910416
 20
-230.742898687
 10
485.4631287752
 20
-231.8780017539
 10
490.9995578985
 20
-233.3093874648
 10
496.5318555309
 20
-235.032784002
 10
502.0435111219
 20
-237.043048073
 10
507.5180757248
 20
-239.3341802596
 10
512.9392110874
 20
-241.899342923
 10
518.2907384109
 20
-244.7308806096
 10
523.5566866345
 20
-247.8203428979
 10
528.721340099
 20
-251.1585096183
 10
533.7692854485
 20
-254.7354183692
 10
538.6854576302
 20
-258.5403942492
 10
543.455184854
 20
-262.5620817146
 10
548.0642323791
 20
-266.7884784695
 10
552.4988449964
 20
-271.2069712847
 10
556.7457880787
 20
-275.8043736412
 10
560.7923870788
 20
-280.5669650832
 10
564.6265653547
 20
-285.4805321663
 10
568.2368802115
 20
-290.5304108748
 10
571.6125570507
 20
-295.701530386
 10
574.7435215259
 20
-300.9784580469
 10
577.6204296084
 20
-306.3454454313
 10
580.2346954739
 20
-311.7864753394
 10
582.5785171255
 20
-317.2853095995
 10
584.6448996782
 20
-322.8255375289
 10
586.4276762343
 20
-328.39062491
 10
587.9215262879
 20
-333.9639633347
 10
589.1219916032
 20
-339.5289197707
 10
590.02548952
 20
-345.0688862007
 10
590.6293236453
 20
-350.5673291876
 10
590.9316919008
 20
-356.0078392164
 10
590.9316919008
 20
-361.3741796668
 10
590.6293236453
 20
-366.6503352698
 10
590.02548952
 20
-371.8205599033
 10
589.1219916032
 20
-376.8694235851
 10
587.9215262879
 20
-381.7818585214
 10
586.4276762343
 20
-386.5432040756
 10
584.6448996782
 20
-391.1392505214
 10
582.5785171255
 20
-395.5562814496
 10
580.2346954739
 20
-399.7811147039
 10
577.6204296084
 20
-403.8011417214
 10
574.7435215259
 20
-407.6043651615
 10
571.6125570507
 20
-411.1794347106
 10
568.2368802115
 20
-414.515680956
 10
564.6265653547
 20
-417.6031472278
 10
560.7923870788
 20
-420.432619313
 10
556.7457880787
 20
-422.995652955
 10
552.4988449964
 20
-425.2845990538
 10
548.0642323791
 20
-427.2926264948
 10
543.455184854
 20
-429.0137425349
 10
538.6854576302
 20
-430.4428106873
 10
533.7692854485
 20
-431.5755660509
 10
528.721340099
 20
-432.4086280386
 10
523.5566866345
 20
-432.939510466
 10
518.2907384109
 20
-433.1666289712
 10
512.9392110874
 20
-433.0893057434
 10
507.5180757248
 20
-432.7077715455
 10
502.0435111219
 20
-432.0231650254
 10
496.5318555309
 20
-431.0375293181
 10
490.9995578985
 20
-429.753805948
 10
485.4631287752
 20
-428.1758260501
 10
479.9390910416
 20
-426.3082989366
 10
474.4439305973
 20
-424.1567980425
 10
468.9940471609
 20
-421.727744292
 10
463.6057053265
 20
-419.0283869362
 10
458.2949860241
 20
-416.0667819185
 10
453.0777385273
 20
-412.8517678321
 10
447.9695331531
 20
-409.3929395428
 10
442.9856147942
 20
-405.7006195536
 10
438.1408574217
 20
-401.7858271985
 10
433.4497196958
 20
-397.6602457566
 10
428.9262018153
 20
-393.3361875845
 10
424.5838037355
 20
-388.8265573711
 10
420.4354848788
 20
-384.1448136255
 10
416.4936254592
 20
-379.3049285111
 10
412.7699895345
 20
-374.3213461474
 10
409.2756898978
 20
-369.2089395027
 10
406.0211549126
 20
-363.982966008
 10
403.0160973905
 20
-358.6590220221
 10
400.2694856042
 20
-353.2529962864
 10
397.7895165227
 20
-347.7810225063
 10
395.5835913485
 20
-342.2594312024
 10
393.6582934294
 20
-336.7047009733
 10
392.019368611
 20
-331.1334093171
 10
390.6717080892
 20
-325.5621831578
 10
389.6193338125
 20
-320.0076492241
 10
388.8653864796
 20
-314.4863844283
 10
388.4121161656
 20
-309.0148663946
 10
388.2608756071
 20
-303.6094242832
  0
LWPOLYLINE
  5
C7
330
1F
100
AcDbEntity
  8
0
  6
Continuous
 62
     7
370
    25
100
AcDbPolyline
 90
       65
 70
   128
 43
0.0
 10
459.4990815351
 20
-164.9181576205
 10
461.9994479864
 20
-162.5794875104
 10
466.0261676298
 20
-159.2005468114
 10
470.2762154336
 20
-156.0807758487
 10
474.7391908187
 20
-153.2278092245
 10
479.4041721365
 20
-150.6486286263
 10
484.2597433959
 20
-148.3495457411
 10
489.2940222005
 20
-146.3361868101
 10
494.4946888264
 20
-144.6134788598
 10
499.8490163709
 20
-143.1856376455
 10
505.3439018972
 20
-142.0561573337
 10
510.9658984997
 20
-141.2278019521
 10
516.7012482106
 20
-140.7025986251
 10
522.5359156681
 20
-140.4818326132
 10
528.4556224632
 20
-140.5660441679
 10
534.4458820814
 20
-140.9550272094
 10
540.4920353536
 20
-141.647829831
 10
546.5792863296
 20
-142.6427566286
 10
552.6927384862
 20
-143.9373728496
 10
558.8174311815
 20
-145.5285103511
 10
564.9383762662
 20
-147.4122753531
 10
571.040594762
 20
-149.584057967
 10
577.1091535177
 20
-152.0385434767
 10
583.1292017529
 20
-154.7697253449
 10
589.0860074011
 20
-157.7709199119
 10
594.9649931604
 20
-161.0347827518
 10
600.7517721677
 20
-164.5533266451
 10
606.432183205
 20
-168.3179411254
 10
611.9923253546
 20
-172.3194135502
 10
617.4185920169
 20
-176.5479516459
 10
622.6977042082
 20
-180.9932074713
 10
627.8167430562
 20
-185.6443027405
 10
632.7631814152
 20
-190.4898554439
 10
637.5249145215
 20
-195.518007702
 10
642.0902896163
 20
-200.7164547838
 10
646.4481344618
 20
-206.0724752181
 10
650.5877846813
 20
-211.5729619254
 10
654.4991098572
 20
-217.204454293
 10
658.1725383211
 20
-222.9531711154
 10
661.5990805782
 20
-228.8050443192
 10
664.7703513053
 20
-234.7457533901
 10
667.6785898716
 20
-240.7607604175
 10
670.31667933
 20
-246.8353456712
 10
672.6781638334
 20
-252.9546436232
 10
674.7572644336
 20
-259.103679326
 10
676.5488932229
 20
-265.2674050588
 10
678.0486657857
 20
-271.430737152
 10
679.2529119269
 20
-277.578592899
 10
680.1586846547
 20
-283.6959274666
 10
680.7637673912
 20
-289.7677707121
 10
681.0666793977
 20
-295.7792638176
 10
681.0666793977
 20
-301.7156956521
 10
680.7637673912
 20
-307.5625387721
 10
680.1586846547
 20
-313.3054849727
 10
679.2529119269
 20
-318.9304803023
 10
678.0486657857
 20
-324.4237594547
 10
676.5488932229
 20
-329.7718794552
 10
674.7572644336
 20
-334.961752558
 10
672.6781638334
 20
-339.9806782741
 10
670.31667933
 20
-344.816374451
 10
667.6785898716
 20
-349.45700733
 10
664.7703513053
 20
-353.8912205048
 10
661.5990805782
 20
-358.1081627126
 10
658.1725383211
 20
-362.0975143893
 10
655.0729659573
 20
-365.2949420343
  0
LWPOLYLINE
  5
C8
330
1F
100
AcDbEntity
  8
0
  6
Continuous
 62
     7
370
    25
100
AcDbPolyline
 90
       34
 70
   128
 43
0.0
 10
590.937299818
 20
-356.2162517217
 10
586.2443831292
 20
-355.8684820523
 10
580.7698185262
 20
-355.1838755322
 10
575.2581629353
 20
-354.1982398249
 10
569.7258653029
 20
-352.9145164548
 10
564.1894361796
 20
-351.3365365569
 10
558.665398446
 20
-349.4690094434
 10
553.1702380017
 20
-347.3175085493
 10
547.7203545653
 20
-344.8884547988
 10
542.3320127309
 20
-342.189097443
 10
537.0212934285
 20
-339.2274924253
 10
531.8040459316
 20
-336.0124783389
 10
526.6958405575
 20
-332.5536500496
 10
521.7119221986
 20
-328.8613300604
 10
516.8671648261
 20
-324.9465377053
 10
512.1760271002
 20
-320.8209562634
 10
507.6525092197
 20
-316.4968980913
 10
503.3101111398
 20
-311.9872678779
 10
499.1617922832
 20
-307.3055241323
 10
495.2199328636
 20
-302.4656390179
 10
491.4962969389
 20
-297.4820566542
 10
488.0019973022
 20
-292.3696500096
 10
484.747462317
 20
-287.1436765149
 10
481.7424047949
 20
-281.819732529
 10
478.9957930085
 20
-276.4137067932
 10
476.515823927
 20
-270.9417330132
 10
474.3098987529
 20
-265.4201417092
 10
472.3846008337
 20
-259.8654114801
 10
470.7456760154
 20
-254.2941198239
 10
469.3980154935
 20
-248.7228936646
 10
468.3456412169
 20
-243.1683597309
 10
467.591693884
 20
-237.6470949351
 10
467.1384235699
 20
-232.1755769014
 10
467.019392289
 20
-229.2551704132
  0
LWPOLYLINE
  5
C9
330
1F
100
AcDbEntity
  8
0
  6
Continuous
 62
     7
370
    25
100
AcDbPolyline
 90
       73
 70
   128
 43
0.0
 10
460.5926523663
 20
-160.5377969334
 10
462.2434157011
 20
-158.2101821085
 10
465.5387799673
 20
-154.0130175014
 10
469.0860740064
 20
-150.045861551
 10
472.8768840287
 20
-146.3181239129
 10
476.9022186517
 20
-142.8386463689
 10
481.1525302264
 20
-139.6156818553
 10
485.6177374833
 20
-136.6568748879
 10
490.2872494441
 20
-133.96924343
 10
495.1499905424
 20
-131.5591622463
 10
500.1944268934
 20
-129.4323477833
 10
505.4085936516
 20
-127.5938446098
 10
510.7801233894
 20
-126.0480134522
 10
516.2962754318
 20
-124.7985208513
 10
521.9439660754
 20
-123.8483304655
 10
527.7097996222
 20
-123.1996960414
 10
533.5801001518
 20
-122.8541560681
 10
539.5409439602
 20
-122.8125301284
 10
545.5781925842
 20
-123.0749169543
 10
551.6775263371
 20
-123.6406941933
 10
557.8244782732
 20
-124.5085198842
 10
564.0044685016
 20
-125.6763356405
 10
570.2028387683
 20
-127.1413715322
 10
576.4048872237
 20
-128.9001526559
 10
582.5959032942
 20
-130.9485073773
 10
588.7612025736
 20
-133.2815772251
 10
594.8861616532
 20
-135.8938284155
 10
600.9562528067
 20
-138.7790649773
 10
606.9570784487
 20
-141.930443448
 10
612.8744052835
 20
-145.3404891062
 10
618.6941980658
 20
-149.0011137002
 10
624.40265289
 20
-152.9036346331
 10
629.9862299319
 20
-157.0387955562
 10
635.4316855638
 20
-161.3967883247
 10
640.7261037664
 20
-165.9672762613
 10
645.8569267648
 20
-170.7394186735
 10
650.8119848136
 20
-175.7018965668
 10
655.5795250626
 20
-180.8429394918
 10
660.148239433
 20
-186.1503534628
 10
664.5072914392
 20
-191.6115498801
 10
668.6463418913
 20
-197.2135753893
 10
672.555573419
 20
-202.9431426047
 10
676.225713757
 20
-208.7866616259
 10
679.6480577378
 20
-214.7302722714
 10
682.8144879397
 20
-220.7598769534
 10
685.7174939401
 20
-226.8611741158
 10
688.3501901295
 20
-233.0196921558
 10
690.7063320433
 20
-239.2208237489
 10
692.7803311732
 20
-245.4498604962
 10
694.5672682226
 20
-251.6920278107
 10
696.062904774
 20
-257.9325199612
 10
697.2636933428
 20
-264.1565351897
 10
698.1667857913
 20
-270.3493108197
 10
698.7700400839
 20
-276.4961582717
 10
699.072025368
 20
-282.5824979026
 10
699.072025368
 20
-288.5938935873
 10
698.7700400839
 20
-294.5160869593
 10
698.1667857913
 20
-300.3350312302
 10
697.2636933428
 20
-306.0369245071
 10
696.062904774
 20
-311.6082425292
 10
694.5672682226
 20
-317.0357707455
 10
692.7803311732
 20
-322.3066356588
 10
690.7063320433
 20
-327.4083353599
 10
688.3501901295
 20
-332.3287691808
 10
685.7174939401
 20
-337.0562663959
 10
682.8144879397
 20
-341.5796139043
 10
679.6480577378
 20
-345.8880828253
 10
676.225713757
 20
-349.9714539467
 10
672.555573419
 20
-353.8200419634
 10
668.6463418913
 20
-357.4247184498
 10
664.5072914392
 20
-360.7769335114
 10
660.148239433
 20
-363.8687360646
 10
659.4785640256
 20
-364.3079452907
  0
LWPOLYLINE
  5
CA
330
1F
100
AcDbEntity
  8
0
  6
Continuous
 62
     7
370
    25
100
AcDbPolyline
 90
       70
 70
   128
 43
0.0
 10
476.3314140315
 20
-120.5419357133
 10
479.2218545261
 20
-117.8397169449
 10
483.5130588602
 20
-114.2265688301
 10
488.0274312168
 20
-110.8712489727
 10
492.7553376978
 20
-107.7809177945
 10
497.6866887125
 20
-104.9621702179
 10
502.8109605093
 20
-102.4210215923
 10
508.117217634
 20
-100.1628948569
 10
513.5941362664
 20
-98.192608968
 10
519.2300283862
 20
-96.5143686149
 10
525.0128667155
 20
-95.1317552472
 10
530.930310386
 20
-94.0477194314
 10
536.9697312746
 20
-93.2645745546
 10
543.1182409529
 20
-92.7839918874
 10
549.3627181912
 20
-92.6069970175
 10
555.6898369606
 20
-92.7339676608
 10
562.0860948705
 20
-93.1646328557
 10
568.5378419845
 20
-93.8980735408
 10
575.0313099489
 20
-94.9327245167
 10
581.5526413759
 20
-96.2663777862
 10
588.0879194156
 20
-97.896187266
 10
594.6231974553
 20
-99.8186748604
 10
601.1445288823
 20
-102.0297378842
 10
607.6379968467
 20
-104.5246578173
 10
614.0897439606
 20
-107.2981103749
 10
620.4860018706
 20
-110.3441768695
 10
626.8131206399
 20
-113.6563568417
 10
633.0575978783
 20
-117.2275819324
 10
639.2061075565
 20
-121.0502309674
 10
645.2455284452
 20
-125.116146221
 10
651.1629721157
 20
-129.4166508252
 10
656.945810445
 20
-133.9425672863
 10
662.5817025648
 20
-138.6842370705
 10
668.0586211972
 20
-143.6315412157
 10
673.3648783219
 20
-148.7739219254
 10
678.4891501187
 20
-154.1004051
 10
683.4205011334
 20
-159.5996237561
 10
688.1484076144
 20
-165.2598422838
 10
692.662779971
 20
-171.0689814916
 10
696.9539843051
 20
-177.0146443836
 10
701.0128629704
 20
-183.0841426157
 10
704.8307541152
 20
-189.2645235727
 10
708.3995101676
 20
-195.5425980101
 10
711.7115152221
 20
-201.9049682009
 10
714.7597012932
 20
-208.3380565262
 10
717.537563398
 20
-214.8281344515
 10
720.039173439
 20
-221.3613518234
 10
722.2591928541
 20
-227.9237664268
 10
724.1928840102
 20
-234.5013737382
 10
725.8361203127
 20
-241.080136812
 10
727.1853950127
 20
-247.6460162365
 10
728.2378286899
 20
-254.1850000939
 10
728.9911753978
 20
-260.6831338633
 10
729.4438274566
 20
-267.1265501996
 10
729.594818884
 20
-273.5014985277
 10
729.4438274566
 20
-279.7943743867
 10
728.9911753978
 20
-285.9917484621
 10
728.2378286899
 20
-292.0803952456
 10
727.1853950127
 20
-298.047321258
 10
725.8361203127
 20
-303.8797927785
 10
724.1928840102
 20
-309.5653630189
 10
722.2591928541
 20
-315.0918986858
 10
720.039173439
 20
-320.4476058736
 10
717.537563398
 20
-325.6210552333
 10
714.7597012932
 20
-330.6012063631
 10
711.7115152221
 20
-335.3774313697
 10
708.3995101676
 20
-339.9395375482
 10
704.8307541152
 20
-344.277789134
 10
701.0128629704
 20
-348.3829280796
 10
699.8444247997
 20
-349.5439750434
  0
LWPOLYLINE
  5
CB
330
1F
100
AcDbEntity
  8
0
  6
Continuous
 62
     7
370
    25
100
AcDbPolyline
 90
       92
 70
   128
 43
0.0
 10
431.943525249
 20
-191.8132253104
 10
432.6561052059
 20
-187.9814047368
 10
434.0053799059
 20
-182.1489332163
 10
435.6486162085
 20
-176.4633629759
 10
437.5823073645
 20
-170.936827309
 10
439.8023267796
 20
-165.5811201212
 10
442.3039368206
 20
-160.4076707615
 10
445.0817989255
 20
-155.4275196316
 10
448.1299849965
 20
-150.6512946251
 10
451.441990051
 20
-146.0891884466
 10
455.0107461034
 20
-141.7509368608
 10
458.8286372482
 20
-137.6457979152
 10
462.8875159135
 20
-133.782532183
 10
467.1787202476
 20
-130.1693840682
 10
471.6930926042
 20
-126.8140642109
 10
476.4209990852
 20
-123.7237330327
 10
481.3523500999
 20
-120.9049854561
 10
486.4766218967
 20
-118.3638368305
 10
491.7828790214
 20
-116.1057100951
 10
497.2597976538
 20
-114.1354242062
 10
502.8956897736
 20
-112.4571838531
 10
508.678528103
 20
-111.0745704853
 10
514.5959717735
 20
-109.9905346695
 10
520.6353926621
 20
-109.2073897927
 10
526.7839023403
 20
-108.7268071256
 10
533.0283795787
 20
-108.5498122557
 10
539.355498348
 20
-108.676782899
 10
545.751756258
 20
-109.1074480938
 10
552.2035033719
 20
-109.8408887789
 10
558.6969713363
 20
-110.8755397549
 10
565.2183027633
 20
-112.2091930244
 10
571.753580803
 20
-113.8390025041
 10
578.2888588427
 20
-115.7614900986
 10
584.8101902697
 20
-117.9725531223
 10
591.3036582341
 20
-120.4674730555
 10
597.7554053481
 20
-123.2409256131
 10
604.1516632581
 20
-126.2869921077
 10
610.4787820274
 20
-129.5991720798
 10
616.7232592657
 20
-133.1703971706
 10
622.871768944
 20
-136.9930462056
 10
628.9111898326
 20
-141.0589614592
 10
634.8286335031
 20
-145.3594660633
 10
640.6114718325
 20
-149.8853825244
 10
646.2473639522
 20
-154.6270523087
 10
651.7242825847
 20
-159.5743564539
 10
657.0305397093
 20
-164.7167371635
 10
662.1548115061
 20
-170.0432203382
 10
667.0861625208
 20
-175.5424389942
 10
671.8140690018
 20
-181.2026575219
 10
676.3284413584
 20
-187.0117967297
 10
680.6196456925
 20
-192.9574596218
 10
684.6785243578
 20
-199.0269578538
 10
688.4964155027
 20
-205.2073388108
 10
692.065171555
 20
-211.4854132483
 10
695.3771766096
 20
-217.847783439
 10
698.4253626806
 20
-224.2808717644
 10
701.2032247855
 20
-230.7709496897
 10
703.7048348264
 20
-237.3041670616
 10
705.9248542416
 20
-243.8665816649
 10
707.8585453976
 20
-250.4441889763
 10
709.5017817002
 20
-257.0229520502
 10
710.8510564001
 20
-263.5888314746
 10
711.9034900773
 20
-270.1278153321
 10
712.6568367852
 20
-276.6259491015
 10
713.109488844
 20
-283.0693654378
 10
713.2604802714
 20
-289.4443137659
 10
713.109488844
 20
-295.7371896248
 10
712.6568367852
 20
-301.9345637003
 10
711.9034900773
 20
-308.0232104838
 10
710.8510564001
 20
-313.9901364961
 10
709.5017817001
 20
-319.8226080166
 10
707.8585453976
 20
-325.508178257
 10
705.9248542416
 20
-331.0347139239
 10
703.7048348264
 20
-336.3904211117
 10
701.2032247855
 20
-341.5638704714
 10
698.4253626806
 20
-346.5440216013
 10
695.3771766096
 20
-351.3202466079
 10
692.065171555
 20
-355.8823527863
 10
688.4964155027
 20
-360.2206043721
 10
684.6785243578
 20
-364.3257433178
 10
680.6196456925
 20
-368.1890090499
 10
676.3284413584
 20
-371.8021571647
 10
671.8140690018
 20
-375.157477022
 10
667.0861625208
 20
-378.2478082002
 10
662.1548115061
 20
-381.0665557768
 10
657.0305397093
 20
-383.6077044025
 10
651.7242825847
 20
-385.8658311379
 10
646.2473639522
 20
-387.8361170268
 10
640.6114718325
 20
-389.5143573799
 10
634.8286335031
 20
-390.8969707476
 10
628.9111898326
 20
-391.9810065634
 10
627.5174096711
 20
-392.1900097242
  0
LWPOLYLINE
  5
CC
330
1F
100
AcDbEntity
  8
0
  6
Continuous
 62
     7
370
    25
100
AcDbPolyline
 90
       28
 70
   128
 43
0.0
 10
590.2769732939
 20
-347.0494434369
 10
585.1275696294
 20
-345.6332015856
 10
579.2147203726
 20
-343.7308168549
 10
573.3254012445
 20
-341.5402114544
 10
567.4752296607
 20
-339.0671944757
 10
561.6797192247
 20
-336.3183239154
 10
555.9542385881
 20
-333.3008892839
 10
550.3139706964
 20
-330.0228922755
 10
544.7738725262
 20
-326.493025549
 10
539.3486354217
 20
-322.7206496763
 10
534.0526461365
 20
-318.7157683201
 10
528.8999486822
 20
-314.4890017059
 10
523.9042070861
 20
-310.0515584587
 10
519.0786691567
 20
-305.4152058805
 10
514.4361313533
 20
-300.5922387448
 10
509.9889048515
 20
-295.5954466933
 10
505.7487828964
 20
-290.4380803203
 10
501.7270095294
 20
-285.1338160344
 10
497.9342497702
 20
-279.6967197908
 10
494.3805613361
 20
-274.1412097914
 10
491.0753679699
 20
-268.48201825
 10
488.0274344502
 20
-262.7341523252
 10
485.2448433487
 20
-256.9128543241
 10
482.734973597
 20
-251.0335612825
 10
480.5044809183
 20
-245.1118640288
 10
478.5592801782
 20
-239.1634658393
 10
476.9045296995
 20
-233.2041407969
 10
476.1674861725
 20
-230.1376575507
  0
ENDSEC
  0
SECTION
  2
OBJECTS
  0
DICTIONARY
  5
C
330
0
100
AcDbDictionary
281
     1
  3
ACAD_GROUP
350
D
  3
ACAD_LAYOUT
350
1A
  3
ACAD_MLINESTYLE
350
17
  3
ACAD_PLOTSETTINGS
350
19
  3
ACAD_PLOTSTYLENAME
350
E
  3
ACAD_SCALELIST
350
47
  0
DICTIONARY
  5
D
102
{ACAD_REACTORS
330
C
102
}
330
C
100
AcDbDictionary
281
     1
  0
DICTIONARY
  5
1A
102
{ACAD_REACTORS
330
C
102
}
330
C
100
AcDbDictionary
281
     1
  3
Layout1
350
1E
  3
Layout2
350
26
  3
Model
350
22
  0
DICTIONARY
  5
17
102
{ACAD_REACTORS
330
C
102
}
330
C
100
AcDbDictionary
281
     1
  3
Standard
350
18
  0
DICTIONARY
  5
19
102
{ACAD_REACTORS
330
C
102
}
330
C
100
AcDbDictionary
281
     1
  0
ACDBDICTIONARYWDFLT
  5
E
102
{ACAD_REACTORS
330
C
102
}
330
C
100
AcDbDictionary
281
     1
  3
Normal
350
F
100
AcDbDictionaryWithDefault
340
F
  0
DICTIONARY
  5
47
102
{ACAD_REACTORS
330
C
102
}
330
C
100
AcDbDictionary
281
     1
  3
A0
350
48
  3
A1
350
49
  3
A2
350
4A
  3
A3
350
4B
  3
A4
350
4C
  3
A5
350
4D
  3
A6
350
4E
  3
A7
350
4F
  3
A8
350
50
  3
A9
350
51
  3
B0
350
52
  3
B1
350
53
  3
B2
350
54
  3
B3
350
55
  3
B4
350
56
  3
B5
350
57
  3
B6
350
58
  3
B7
350
59
  3
B8
350
5A
  3
B9
350
5B
  3
C0
350
5C
  3
C1
350
5D
  3
C2
350
5E
  3
C3
350
5F
  3
C4
350
60
  3
C5
350
61
  3
C6
350
62
  3
C7
350
63
  3
C8
350
64
  3
C9
350
65
  3
D0
350
66
  3
D1
350
67
  3
D2
350
68
  0
LAYOUT
  5
1E
102
{ACAD_REACTORS
330
1A
102
}
330
1A
100
AcDbPlotSettings
  1

  2
none_device
  4

  6

 40
0.0
 41
0.0
 42
0.0
 43
0.0
 44
0.0
 45
0.0
 46
0.0
 47
0.0
 48
0.0
 49
0.0
140
0.0
141
0.0
142
1.0
143
1.0
 70
   688
 72
     1
 73
     0
 74
     5
  7

 75
    16
147
1.0
148
0.0
149
0.0
100
AcDbLayout
  1
Layout1
 70
     1
 71
     1
 10
0.0
 20
0.0
 11
420.0
 21
297.0
 12
0.0
 22
0.0
 32
0.0
 14
1.0000000000E+20
 24
1.0000000000E+20
 34
1.0000000000E+20
 15
-1.0000000000E+20
 25
-1.0000000000E+20
 35
-1.0000000000E+20
146
0.0
 13
0.0
 23
0.0
 33
0.0
 16
1.0
 26
0.0
 36
0.0
 17
0.0
 27
1.0
 37
0.0
 76
     0
330
1B
  0
LAYOUT
  5
26
102
{ACAD_REACTORS
330
1A
102
}
330
1A
100
AcDbPlotSettings
  1

  2
none_device
  4

  6

 40
0.0
 41
0.0
 42
0.0
 43
0.0
 44
0.0
 45
0.0
 46
0.0
 47
0.0
 48
0.0
 49
0.0
140
0.0
141
0.0
142
1.0
143
1.0
 70
   688
 72
     1
 73
     0
 74
     5
  7

 75
    16
147
1.0
148
0.0
149
0.0
100
AcDbLayout
  1
Layout2
 70
     1
 71
     2
 10
0.0
 20
0.0
 11
0.0
 21
0.0
 12
0.0
 22
0.0
 32
0.0
 14
0.0
 24
0.0
 34
0.0
 15
0.0
 25
0.0
 35
0.0
146
0.0
 13
0.0
 23
0.0
 33
0.0
 16
1.0
 26
0.0
 36
0.0
 17
0.0
 27
1.0
 37
0.0
 76
     0
330
23
  0
LAYOUT
  5
22
102
{ACAD_REACTORS
330
1A
102
}
330
1A
100
AcDbPlotSettings
  1

  2
none_device
  4
Letter_(8.50_x_11.00_Inches)
  6

 40
6.35
 41
6.35
 42
6.35000508
 43
6.35000508
 44
215.9
 45
279.4
 46
0.0
 47
0.0
 48
0.0
 49
0.0
140
0.0
141
0.0
142
1.0
143
1.0
 70
  1712
 72
     1
 73
     0
 74
     0
  7

 75
     0
147
1.0
148
0.0
149
0.0
100
AcDbLayout
  1
Model
 70
     1
 71
     0
 10
0.0
 20
0.0
 11
279.4
 21
215.9
 12
0.0
 22
0.0
 32
0.0
 14
0.0
 24
0.0
 34
0.0
 15
279.4
 25
215.9
 35
0.0
146
0.0
 13
0.0
 23
0.0
 33
0.0
 16
1.0
 26
0.0
 36
0.0
 17
0.0
 27
1.0
 37
0.0
 76
     0
330
1F
331
29
  0
MLINESTYLE
  5
18
102
{ACAD_REACTORS
330
17
102
}
330
17
100
AcDbMlineStyle
  2
Standard
 70
     0
  3

 62
   256
 51
90.0
 52
90.0
 71
     2
 49
0.5
 62
   256
  6
BYLAYER
 49
-0.5
 62
   256
  6
BYLAYER
  0
ACDBPLACEHOLDER
  5
F
102
{ACAD_REACTORS
330
E
102
}
330
E
  0
SCALE
  5
48
102
{ACAD_REACTORS
330
47
102
}
330
47
100
AcDbScale
 70
     0
300
1:1
140
1.0
141
1.0
290
     1
  0
SCALE
  5
49
102
{ACAD_REACTORS
330
47
102
}
330
47
100
AcDbScale
 70
     0
300
1:2
140
1.0
141
2.0
290
     0
  0
SCALE
  5
4A
102
{ACAD_REACTORS
330
47
102
}
330
47
100
AcDbScale
 70
     0
300
1:4
140
1.0
141
4.0
290
     0
  0
SCALE
  5
4B
102
{ACAD_REACTORS
330
47
102
}
330
47
100
AcDbScale
 70
     0
300
1:5
140
1.0
141
5.0
290
     0
  0
SCALE
  5
4C
102
{ACAD_REACTORS
330
47
102
}
330
47
100
AcDbScale
 70
     0
300
1:8
140
1.0
141
8.0
290
     0
  0
SCALE
  5
4D
102
{ACAD_REACTORS
330
47
102
}
330
47
100
AcDbScale
 70
     0
300
1:10
140
1.0
141
10.0
290
     0
  0
SCALE
  5
4E
102
{ACAD_REACTORS
330
47
102
}
330
47
100
AcDbScale
 70
     0
300
1:16
140
1.0
141
16.0
290
     0
  0
SCALE
  5
4F
102
{ACAD_REACTORS
330
47
102
}
330
47
100
AcDbScale
 70
     0
300
1:20
140
1.0
141
20.0
290
     0
  0
SCALE
  5
50
102
{ACAD_REACTORS
330
47
102
}
330
47
100
AcDbScale
 70
     0
300
1:30
140
1.0
141
30.0
290
     0
  0
SCALE
  5
51
102
{ACAD_REACTORS
330
47
102
}
330
47
100
AcDbScale
 70
     0
300
1:40
140
1.0
141
40.0
290
     0
  0
SCALE
  5
52
102
{ACAD_REACTORS
330
47
102
}
330
47
100
AcDbScale
 70
     0
300
1:50
140
1.0
141
50.0
290
     0
  0
SCALE
  5
53
102
{ACAD_REACTORS
330
47
102
}
330
47
100
AcDbScale
 70
     0
300
1:100
140
1.0
141
100.0
290
     0
  0
SCALE
  5
54
102
{ACAD_REACTORS
330
47
102
}
330
47
100
AcDbScale
 70
     0
300
2:1
140
2.0
141
1.0
290
     0
  0
SCALE
  5
55
102
{ACAD_REACTORS
330
47
102
}
330
47
100
AcDbScale
 70
     0
300
4:1
140
4.0
141
1.0
290
     0
  0
SCALE
  5
56
102
{ACAD_REACTORS
330
47
102
}
330
47
100
AcDbScale
 70
     0
300
8:1
140
8.0
141
1.0
290
     0
  0
SCALE
  5
57
102
{ACAD_REACTORS
330
47
102
}
330
47
100
AcDbScale
 70
     0
300
10:1
140
10.0
141
1.0
290
     0
  0
SCALE
  5
58
102
{ACAD_REACTORS
330
47
102
}
330
47
100
AcDbScale
 70
     0
300
100:1
140
100.0
141
1.0
290
     0
  0
SCALE
  5
59
102
{ACAD_REACTORS
330
47
102
}
330
47
100
AcDbScale
 70
     0
300
1/128" = 1'-0"
140
0.0078125
141
12.0
290
     0
  0
SCALE
  5
5A
102
{ACAD_REACTORS
330
47
102
}
330
47
100
AcDbScale
 70
     0
300
1/64" = 1'-0"
140
0.015625
141
12.0
290
     0
  0
SCALE
  5
5B
102
{ACAD_REACTORS
330
47
102
}
330
47
100
AcDbScale
 70
     0
300
1/32" = 1'-0"
140
0.03125
141
12.0
290
     0
  0
SCALE
  5
5C
102
{ACAD_REACTORS
330
47
102
}
330
47
100
AcDbScale
 70
     0
300
1/16" = 1'-0"
140
0.0625
141
12.0
290
     0
  0
SCALE
  5
5D
102
{ACAD_REACTORS
330
47
102
}
330
47
100
AcDbScale
 70
     0
300
3/32" = 1'-0"
140
0.09375
141
12.0
290
     0
  0
SCALE
  5
5E
102
{ACAD_REACTORS
330
47
102
}
330
47
100
AcDbScale
 70
     0
300
1/8" = 1'-0"
140
0.125
141
12.0
290
     0
  0
SCALE
  5
5F
102
{ACAD_REACTORS
330
47
102
}
330
47
100
AcDbScale
 70
     0
300
3/16" = 1'-0"
140
0.1875
141
12.0
290
     0
  0
SCALE
  5
60
102
{ACAD_REACTORS
330
47
102
}
330
47
100
AcDbScale
 70
     0
300
1/4" = 1'-0"
140
0.25
141
12.0
290
     0
  0
SCALE
  5
61
102
{ACAD_REACTORS
330
47
102
}
330
47
100
AcDbScale
 70
     0
300
3/8" = 1'-0"
140
0.375
141
12.0
290
     0
  0
SCALE
  5
62
102
{ACAD_REACTORS
330
47
102
}
330
47
100
AcDbScale
 70
     0
300
1/2" = 1'-0"
140
0.5
141
12.0
290
     0
  0
SCALE
  5
63
102
{ACAD_REACTORS
330
47
102
}
330
47
100
AcDbScale
 70
     0
300
3/4" = 1'-0"
140
0.75
141
12.0
290
     0
  0
SCALE
  5
64
102
{ACAD_REACTORS
330
47
102
}
330
47
100
AcDbScale
 70
     0
300
1" = 1'-0"
140
1.0
141
12.0
290
     0
  0
SCALE
  5
65
102
{ACAD_REACTORS
330
47
102
}
330
47
100
AcDbScale
 70
     0
300
1-1/2" = 1'-0"
140
1.5
141
12.0
290
     0
  0
SCALE
  5
66
102
{ACAD_REACTORS
330
47
102
}
330
47
100
AcDbScale
 70
     0
300
3" = 1'-0"
140
3.0
141
12.0
290
     0
  0
SCALE
  5
67
102
{ACAD_REACTORS
330
47
102
}
330
47
100
AcDbScale
 70
     0
300
6" = 1'-0"
140
6.0
141
12.0
290
     0
  0
SCALE
  5
68
102
{ACAD_REACTORS
330
47
102
}
330
47
100
AcDbScale
 70
     0
300
1'-0" = 1'-0"
140
12.0
141
12.0
290
     0
  0
ENDSEC
  0
EOF
